mercoledì 29 gennaio 2014

Regina di Cuori


Regina di cuori -- Litfiba - 1997 - Mondi Sommersi


FA#-                               RE  SI

Donna meravigliosa sei donna pericolosa

   FA#-                                   RE        SI    FA#-  RE  SI

Ti fondi e mi confondi mi cerchi e poi ti perdi via così


   FA#-                                                     RE       SI

Io non so l'amore è guerra o pace o collaborazione e grande partecipazione



MI-                        LA                  MI-            LA

MI-    LA

Regina di cuori tra mille colori sei tu la più bella e della notte la mia

stella

MI-        LA   MI-          LA   MI-         LA          MI-          LA

MI-   LA

Regina di cuori ti vesto di fiori ti giuro l'amore ma non eterna fedeltà

MI-

M'ami non m'ami ma m'ami



FA#-                               RE  SI

O forse si o no oh m'ami!

   FA#-                                                    RE        SI        FA#-         RE        SI

Succede succede un finimondo perché l'amore amaro è un mare meraviglioso e mentale

   FA#-                                                     RE       SI

E il cuore ha un agrodolce in gola mi lasci e poi ti lasci andare per poi

ritornare



MI-                        LA                  MI-            LA          MI-    LA

Regina di cuori tra mille colori sei tu la più bella e della notte la mia stella

MI-        LA   MI-          LA   MI-         LA          MI-          LA       MI-   LA

Regina dei fiori stratega d'amore ti muovi felina con la certezza del tuo sesso



MI-                 LA            DO7                RE

M'ami non m'ami ma m'ami dici che m'ami non sai se mi ami

MI-                 LA            DO7                RE     MI-

M'ami non m'ami ma m'ami dici che m'ami non sai se mi ami

LA        DO7 RE            MI-  LA    DO7  RE

Regina di cuori mi mandi di fuori così



MI-                        LA                  MI-            LA          MI-    LA

Rosa genera rosa e una spina genera spina e vivo tra mille tentazioni

MI-        LA   MI-          LA   MI-         LA          MI-          LA       MI-   LA

E pensieri peccaminosi perché ogni storia è una farfalla in fasce

MI-        LA   MI-          LA   MI-         LA          MI-          LA       MI-   LA

Che si trasforma ci trasforma altrimenti non cresce e si trasforma ci

trasforma



MI-                        LA                  MI-            LA          MI-           LA

Regina di cuori dai gioie e dolori li do pure io se non sto bene con me stesso

MI-        LA   MI-          LA   MI-         LA          MI-          LA       MI-        LA

Veleno d'amore regina del mio cuore la tua strategia e' il solo ponte fra i due sessi



MI-                 LA            DO7                RE

M'ami non m'ami ma m'ami dici che m'ami non sai se mi ami

MI-                 LA            DO7                RE     MI-

M'ami non m'ami ma m'ami dici che m'ami non sai se mi ami

LA        DO7 RE            MI-  LA    DO7  RE

Regina di cuori mi mandi di fuori così

MI-                 LA            DO7                RE

M'ami non m'ami ma m'ami dici che m'ami non sai se mi ami

MI-                 LA            DO7                RE     MI-

M'ami non m'ami ma m'ami dici che m'ami non sai se mi ami

LA        DO7 RE            MI-   LA    DO7  RE

Regina di cuori mi mandi di fuori così

venerdì 17 gennaio 2014

Tex




Litfiba

: Tex dall'album "Litfiba 3"  1988

---

Em   Bm D (2x)

Em              Bm        D
Sulla strada ci sono solo io
Circondato dal deserto attorno a me
Il silenzio taglia tutta la citta`
Grande spirito mi chiama dal falo`

Em Em/D D G

Em
Oh, ma cosa dici?
   Em/D   D    G
La vostra liberta`
Em
Oh, che cazzo dici
       Em/D       Em   Bm D
Noi ce l' avevamo gia`

Em                      Bm           D
Giorno e notte, notte e giorno senza via
La mia gente e` come un' aquila senz' ali
Tu cavalca, cavalca mio cow-boy
Che la terra tanto ce la rubi a noi
[ Tab from: http://www.guitaretab.com/l/litfiba/10593.html ]
Em
Ah, che cazzo dici
   Em/D   D    G
La vostra liberta`
Em
Oh, ma cosa dici?
       Em/D       C
Noi ce l' avevamo gia`
    Am           B                   C
Non voglio piu` amici, voglio solo nemici
    Am           B                   C
Non voglio piu` amici, voglio solo nemici
    Am           B                   C       Am B
Non voglio piu` amici, Basta le vostre bugie

Em   Bm D (2x)

Em            Bm            D
Tu cavalca, cavalca mio cow-boy
Che la terra tanto ce la fotti a noi

Em
Ah, che cazzo dici
   Em/D   D    G
La vostra liberta`
Em
Oh, ma cosa dici?
       Em/D       C
Noi ce l' avevamo gia`
    Am           B                   C
Non voglio piu` amici, voglio solo nemici
    Am           B                   C
Non voglio piu` amici, voglio solo nemici
    Am           B                   C       Am B
Non voglio piu` amici, Basta le vostre bugie

Em   Bm    D Em   Bm    D
Tu cavalca,  tu cavalca
Yeah...

martedì 16 luglio 2013

Goccia a Goccia



Goccia a Goccia, da "Mondi sommersi" 1997.

  A9
|-------------|-------------|
|-----0-------|-----0-------|
|-------2---2-|-------2---2-|
|---2-----2---|---2-----2---|
|-0-----------|-0-----------|
|-------------|-------------|

A9              G  A9                 G  A9
Stesso tasso di gioia assuefatti alla noia
           G           D                 A9
Viviamo cosi' mondi sommersi tutti da scoprire
Un cambio graduale che sia dentro o sia fuori
Non e' facile per mantenere tutto il mio calore

A9
Rompere le acque della casa nostalgia
Vedere coi miei occhi e sentire chiare qua
G              D              A9
Parole e suoni giocando col domani
E' magica la luce che disegna le ombre
E' magica la mente dove nasce la curiosit?
Di mondi sommersi tutti da scoprire

E rinasce ogni attimo il congegno fantastico
Che goccia a goccia fa un mare dentro me
La parola magica dev'essere semplice
Io sono qua e non sto certo a guardare

Una scelta pi? attiva per cercare la gioia
Mi aiuterebbe a concentrare meglio l'energia

Rompere le acque della casa nostalgia
Vedere coi miei occhi e sentire chiare qua
Parole e suoni gli odori dei colori
E' magica la notte e' magica allegria
Dipende dai tuoi occhi e da come sei con me
E da come ridi cercando di capirmi

Anfibio dell'anima congegno fantastico
Io goccia a goccia ho un mare dentro me
La parola magica deve essere semplice
Io star? qua cercando di capire

Rompere le acque della casa nostalgia
Per vedere coi miei occhi e sentire chiare qua
Parole e suoni problemi di domani

E rinasce ogni attimo il congegno fantastico
Che goccia a goccia fa un mare dentro me me me


Chords used:

       A9  D   G
   E---0---2---3----|
   B---0---3---3----|
   G---2---2---0----|
   D---2---0---0----|
   A---0-------2----|
   E---0-------3----|


Transcription by Daniele Mazzucca
Email: daniele.mazzucca@iol.it

Gioconda

Gioconda, dall'album "El Diablo" 1990 
tabber: led_floyd


    Bm    A     G
e|- - -|- - -|- - -|
B|- - -|- - -|- - -|
G|- - -|- - -|- - -|
D|- 9 -|- 7 -|- 5 -|
A|- 9 -|- 7 -|- 5 -|
E|- 7 -|- 5 -|- 3 -|



 riff 1                                            riff 2
e| - - - - - - - - - - - - - - - - - - - - - - - -|- - - - - - - - - - - - - - - - -||
B| - - 5b6\5 - - - 5b6\5b6\5 - - - 7 -h10p7h10p7 -|- - - 5b6\5 - - - 5b6\5b6\5 - - -||
G| 4 7 - - - 7 4 7 - - - - - 7 4 7 - - - - - - - -|- 4 7 - - - 7 4 7 - - - - - 7 4 -||
D| - - - - - - - - - - - - - - - - - - - - - - - -|- - - - - - - - - - - - - - - - 7||
A| - - - - - - - - - - - - - - - - - - - - - - - -|- - - - - - - - - - - - - - - - -||
E| - - - - - - - - - - - - - - - - - - - - - - - -|- - - - - - - - - - - - - - - - -||
Comincia subito la strofa



Bm              
  Che sogno sudaticcio
Bm             
  isterico e bizzarro
Bm                   G   A
  con tutti gli occhi del tradimento
                        G         A
  la tua famiglia mi ha inchiodato qui

riff 2

Bm
  E spunta il prete
        A
  col dito in cielo
Bm                    
  che mi vaneggia della fedeltà
Bm
  vorrei parlare
  G    A
  farvi capire
                        G      A
che questa farsa non mi cambierà


Bm                      G       A
Ma la speranza è l'ultima a morire
Bm                    G              A
chi visse sperando morì non si può dire
         Bm    G         A
il cuore no no non te lo do
         Bm    G        A
l'anello no no scordatelo
D               E          Bm A
Mi sento freddo paralizzato
D            E
praticamente incatenato

e|- - - - - - - - -  - - - - - |
B|- -  -  -  7  - -  5 5 5 9 5 |
G|- 7  7  7  -  7 -  - - - - - |
D|- -  -  -  -  - -  - - - - - |
A|- -  -  -  -  - -  - - - - - |
E|- -  -  -  -  - -  - - - - - |
    Mi sento freddo, paralizzato (riff2)
    Praticamente     Incatenato

e| - - - - - - - - - - - - - - - - - - -|
B| 7 -h10p7h10p7 9h10/12p10\9 7  9p7 7 7|
G| - - - - - - - - - - - - - - 9 - - - -|
D| - - - - - - - - - - - - - - - - - - -|
A| - - - - - - - - - - - - - - - - - - -|
E| - - - - - - - - - - - - - - - - - - -|

domenica 19 giugno 2011

El diablo - Litfiba



El Diablo - Litfiba

Solm Fam Sibm Dom Solm
Giro di notte con le anime perse

Solm Fam Sibm Dom Solm
Sl della famiglia io sono il ribelle

Solm Fam Sibm Dom Solm
Tu vendimi l'anima e ti mando alle stelle

Fam Sibm Dom Solm
E il paradiso è un'astuta bugia

Fam Sibm Dom Solm
Tutta la vita è una grassa bugia...


sl
Sol La Sol Fa Re Do Do Do Fa Fa Sol Re
Sol La Sol Fa Re Do Do Do Re Do La# Sol

Solm Fam Sibm Dom Solm
La vita dura è una gran fregatura

Solm Fam Sibm Dom Solm
Ma a volte uno strappo è una necessità

Solm
A chi va bene a me va male

Fam Sibm Dom Solm
E sono un animale e sia!!

Solm Fam Sibm Dom Solm
Tutta la storia è una grassa bugia

Solm Fam Sibm Dom
Tutte le vite per primo la mia


Mib Do Sol Sol La# Do Re
Ah mama mia el diablo

Mib Do Sol Sol La# Do Re
Ah ariba ariba el diablo

Mib Do Sol
Ah mama mia el diablo

Fa Fa# Sol
Sei, sei, sei

Sol La Sol Fa Re Do Do Do Fa Fa Sol Re


Solm Fam Sibm Dom Solm
Spara al serpente della prima mela

Solm Fam Sibm Dom Solm
Che ruba la forza a chi lo condannò



Solm Fam Sibm Dom Solm
Ed io con la musica mi cambio la pelle

Solm Fam Sibm Dom Solm
Ma il paradiso è un'astuta bugia

Solm Fam Sibm Dom
Tutte le vite per primo la mia

Mib Do Sol Sol La# Do Re
Ah mama mia el diablo,

Mib Do Sol Sol La# Do Re
Ah ariba ariba el diablo

Mib Do Sol Sol La# Do Re
Ah mama mia el diablo

Mib Do Sol
Ah sua santità el diablo

Fa Fa# Sol
Sei, sei, sei.


sib sol do sol re sol do sol


G |--------12-12-12-14-12-10-------------------------10--10---12-----------|
D |-------------------------------12-12-12------10-10---------------12-----|
A |------------------------------------------------------------------------|

G|-----12-12-12-14-12-10---------------------------------------------------|
D|----------------------------12-12-12-----10-10---12--10------------------|
A|---------------------------------------------------------------13---10---|



Ascolta la canzone su youtube

Animale di zona - Litfiba - Spirito



LITFIBA
ANIMALE DI ZONA

Intro: Am7 Em Am7 Em C Em

e:---7^--10^---7/5/3-------3-5/7^--10^---7/5/3--------
B:----------------------------------------------------

e:----------------------------------------------------
B:-------7-8-7-5--5/7--5-----5------------------------
G:-------------------------------7-----4^-------------

Em7 Am7 Em7 Am7

Em Am7
Al confine coi miei pensieri
Em Am7
scivolo sull'erba dei campi
Em Am7
onde su onde i desideri
Em
e sogno di averti al mio fianco
Am7 Em
ma segno la mia zona
Am Em
son tonnellate le cose non dette fra noi
C Em
e le carezze ai cuscini

Em7 Am7 Em7 Am7

Em Am7
Mi abbandono ai desideri
Em Am7
e scivola la mano sui fianchi
Em Am7
cerco amore coi soli pensieri
Em
e cado nei tuoi occhi salati
Am
mi chiedi perchè
Em
io gioco con le parole
Am Em
sai come va difendo la mia zona
Em7 C
Resto solo coi miei pensieri

C
Nuoto nell'erba
Em E4
e passa il silenzio in mezzo a noi
C Em
son l'animale che gioca da solo col vento
B Em
segno il mio confine
B Em C G D Em
questo è il mio limite di animale di zona

Strum: Am7 Em Am7 Em C Em B Em Am7 Em Am7 Em C Em (sotto un piccolo assolo)

C Em Am7
Tu preferisci un'altra illusione alla realtà
C Em Am7
io uso parole come coriandoli di spine
B Em
questo è il mio confine
B Em C G D Em
un autolimite di animale di zona

Altro assolo: (sotto ripetere più volte questi accordi Am7 Em Am7 Em C Em B Em Am7 Em
Am7 Em)

Em



Ascolta la canzone su youtube

sabato 18 giugno 2011

Sole nero - Litfiba


INTRO

E|--------------------|
B|-----3-------3------|
G|---4---4---4---4--4-|
D|-2-------2------2---| x6
A|--------------------|
E|--------------------|

RIFF

E|----------------------------|----------------------------|
B|----------------------------|----------------------------|
G|-----7--9-----7--9-----7-9--|-----7--9-----7--9-----7-9--|
D|-7-7------7-7------7-7------|-7-7------7-7------7-7------|
A|----------------------------|----------------------------|
E|----------------------------|----------------------------|
|
E|----------------------------|----------------------------|
B|----------------------------|----------------------------|
G|----------------------------|--------------7-------------|
D|-2--------------------------|-5------------7-------------|
A|-2--------------------------|-5------------5-------------|
E|-0--------------------------|-3--------------------------|


E|----------------------------|----------------------------|
B|----------------------------|----------------------------|
G|-----7--9-----7--9-----7-9--|-----7--9-----7--9-----7-9--|
D|-7-7------7-7------7-7------|-7-7------7-7------7-7------|
A|----------------------------|----------------------------|
E|----------------------------|----------------------------|
|
E|----------------------------|----------------------------|
B|----------------------------|----------------------------|
G|----------------------------|----------7-----------------|
D|-2------------2-------------|-5--------7-----------------|
A|-2------------2-------------|-5--------5-----------------|
E|-0------------0-------------|-3--------------------------|

STROFA

E|---------------------------------|---------------------------------|
B|---------------------------------|---------------------------------|
G|---------------------------------|-----------------7-7-7-77777-7-7-|
D|-2-2-2-22222-2-2-2-2-2-22222-2-2-|-5-5-5-55555-5-5-7-7-7-77777-7-7-| x2
A|-2-2-2-22222-2-2-2-2-2-22222-2-2-|-5-5-5-55555-5-5-5-5-5-55555-5-5-|
E|-0-0-0-00000-0-0-0-0-0-00000-0-0-|-3-3-3-33333-3-3-----------------|
________________________________palm muted________________________________

E|----------------------------|----------------------------|
B|----------------------------|----------------------------|
G|-----7--9-----7--9-----7-9--|-----7--9-----7--9-----7-9--|
D|-7-7------7-7------7-7------|-7-7------7-7------7-7------|
A|----------------------------|----------------------------|
E|----------------------------|----------------------------|
|
E|----------------------------|----------------------------|
B|----------------------------|----------------------------|
G|----------------------------|-7-----------5--------------|
D|-2------------5-------------|-7-----------5--------------|
A|-2------------5-------------|-5-----------3--------------|
E|-0------------3-------------|----------------------------|

RITORNELLO

E|----------------------------|----------------------------|
B|----------------------------|----------------------------|
G|----------------------------|-7-----------5--------------|
D|-2------------5-------------|-7-----------5--------------| x3
A|-2------------5-------------|-5-----------3--------------|
E|-0------------3-------------|----------------------------|

SOLO

E|----------------------------|----------------------------|
B|----------------------------|----------------------------|
G|-11h12-11-9-11-7-9-7-9-7-9v-|9v-9v-9v-9v-9v--7-9-9b9r-7--|
D|----------------------------|----------------------------|
A|----------------------------|----------------------------|
E|----------------------------|----------------------------|

E|----------------------------|----------------------------|
B|----------------------------|-------------------- 12--12-|
G|-9b9r-7-9-7----7---9/12\11--|-9/11/12\--/12-14--14--14---|
D|-------------9--------------|----------------------------|
A|----------------------------|----------------------------|
E|----------------------------|----------------------------|



E|----------------------------|----------------------------|
B|----12-----12-----12--------|----------------------------|
G|-14----14-----14------14----|-9v--9v-9v--9v--12--12--12--|
D|----------------------------|----------------------------|
A|----------------------------|----------------------------|
E|----------------------------|----------------------------|

E|----------------------------|----------------------------|
B|-----------12-12-12-12------|----------------------------|
G|-14-14-14-------------------|----------------------------|
D|----------------------------|----------------------------|
A|----------------------------|----------------------------|
E|----------------------------|----------------------------|


RITONRELLO finale

E|----------------------------|----------------------------|
B|----------------------------|----------------------------|
G|----------------------------|-7-----------5--------------|
D|-2------------5-------------|-7-----------5--------------| x3
A|-2------------5-------------|-5-----------3--------------|
E|-0------------3-------------|----------------------------|

FINE


E|----------------------------|----------------------------|
B|----------------------------|----------------------------|
G|--9-------------------------|----------------------------|
D|--9-------------------------|----------------------------|
A|--7-------------------------|----------------------------|
E|----------------------------|----------------------------|